Iron Man Guitar Tab – Black Sabbath

The good old classic Iron Man is a song most people learn to play, it’s understandable because it’s both easy to play and sounds great, I have made things even easier for you, it can be hard to find the right tabs online, but I have found the best Iron Man guitar tab here, I hope you enjoy it. Look for links below to download and for a more detailed Iron Man guitar tab with solos and bass.

Black Sabbath Iron Man Guitar TabBlack Sabbath Iron Man Guitar Tab

Here is all you need to learn to play whole Iron Man.

Black-Sabbath_ Iron-Man-Tab_1-Guitar-with-solo

Black-Sabbath_Iron-Man-Tab_All-Instruments

Start Jamming!

Pink Floyd Wish You Were Here Guitar Tab

Here are the guitar tabs for Wish You Were Here with Pink Floyd

The written guitar tabs are beneath the video and you can find a guitar pro tab and pdf tab download at the bottom.

 

 

Pink Floyd Wish You Were Here Guitar Tab

 

       Q    E  E  Q    Q       E  Q.     E  Q.        Q    Q    Q    Q     
E||------------------------|-----3---------3------|----------------------|
B||------------------------|-----3---------3------|----------------------|
G||*-----------------------|--0--0------x--0------|--0-------------------|
D||*-------------0----2----|--2--2---------2------|-------2----0----0----|
A||--------0--2------------|----------------------|----------------------|
E||---3--------------------|----------------------|-----------------3----|


  H        E  Q.          Q    E  E  Q    Q         E  Q.     E  Q.      
--3-----------3-------||-----------------------||---3--3---------3------|
--3-----------3-------||-----------------------||---3--3---------3------|
--0--------x--0------*||-----------------------||*--0--0------x--0------|
--0--------x--0------*||-------------0----2----||*--2--2---------2------|
--x--------x--x-------||-------0--2------------||-----------------------|
--3-----------3-------||--3--------------------||-----------------------|


  Q    Q    Q    Q       E  Q.     E  Q.        Q    E  E  Q    Q       
----------------------|--0--0---------0------|------------------------||
----------------------|--2--2---------2------|------------------------||
----------------------|--2--2------x--2------|-----------------------*||
--2----0--------------|--2--2------x--2------|-------------0----2----*||
------------2----0----|------------x---------|--0----0--2-------------||
----------------------|----------------------|------------------------||


  Q    E  E  Q    Q       E  Q.     E  Q.        Q    Q    Q    Q     
-----------------------|-----3---------3------|----------------------|
-----------------------|-----3---------3------|----------------------|
-----------------------|--0--0------x--0------|--0-------------------|
-------------0----2----|--2--2---------2------|-------2----0----0----|
--0----0--2------------|----------------------|----------------------|
-----------------------|----------------------|-----------------3----|


  H        E  Q.        Q    E  E  Q    Q       E  Q.     E  Q.      
--3-----------3------|-----------------------|-----3---------3------|
--3-----------3------|-----------------------|-----3---------3------|
--0--------x--0------|-----------------------|--0--0------x--0------|
--0--------x--0------|-------------0----2----|--2--2---------2------|
--x--------x--x------|-------0--2------------|----------------------|
--3-----------3------|--3--------------------|----------------------|


  Q    Q    Q    Q       H        E  Q.        Q    E  E  Q    Q     
----------------------|--3-----------3------|-----------------------|
----------------------|--3-----------3------|-----------------------|
--0-------------------|--0--------x--0------|-----------------------|
-------2----0----0----|--0--------x--0------|-------------0----2----|
----------------------|--x--------x--x------|-------0--2------------|
-----------------3----|--3-----------3------|--3--------------------|


  E  Q.     E  Q.        Q    Q    Q    Q       E  Q.     E  Q.      
-----3---------3------|----------------------|--0--0---------0------|
-----3---------3------|----------------------|--2--2---------2------|
--0--0------x--0------|----------------------|--2--2------x--2------|
--2--2---------2------|--2----0--------------|--2--2------x--2------|
----------------------|------------2----0----|------------x---------|
----------------------|----------------------|----------------------|


  Q    E  E  Q    Q       E  Q.     E  Q.        Q    Q    Q    Q     
-----------------------|-----3---------3------|----------------------|
-----------------------|-----3---------3------|----------------------|
-----------------------|--0--0------x--0------|----------------------|
-------------0----2----|--2--2---------2------|--2----0--------------|
--0----0--2------------|----------------------|------------2----0----|
-----------------------|----------------------|----------------------|


                         C                                           
  H        E  E  Q       H        Q    E  E     H        Q    E  E   
--3-----------3--3----|--0--------0----0--0--|--0--------0----0--0--|
--3-----------0--0----|--1--------1----1--1--|--1--------1----1--1--|
--0--------x--0--0----|--0--------0----0--0--|--0--------0----0--0--|
--0--------x--0--0----|--2--------2----2--2--|--2--------2----2--2--|
--x--------x--x--2----|--3--------3----3--3--|--3--------3----3--3--|
--3-----------3--3----|----------------------|----------------------|


  D                                             Am                   
  H        Q    E  E     H        Q    E  E     H        Q    E  E   
--2--------2----2--2--|--2--------2----2--2--|--0--------0----0--0--|
--3--------3----3--3--|--3--------3----3--3--|--1--------1----1--1--|
--2--------2----2--2--|--2--------2----2--2--|--2--------2----2--2--|
--0--------0----0--0--|--0--------0----0--0--|--2--------2----2--2--|
----------------------|----------------------|--0--------0----0--0--|
----------------------|----------------------|----------------------|


                         G                                           
  H        Q    E  E     H        Q    E  E     H        Q    E  E   
--0--------0----0--0--|--3--------3----3--3--|--3--------3----3--3--|
--1--------1----1--1--|--0--------0----0--0--|--0--------0----0--0--|
--2--------2----2--2--|--0--------0----0--0--|--0--------0----0--0--|
--2--------2----2--2--|--0--------0----0--0--|--0--------0----0--0--|
--0--------0----0--0--|--2--------2----2--2--|--2--------2----2--2--|
----------------------|--3--------3----3--3--|--3--------3----3--3--|


  D                                             C                    
  H        Q    E  E     H        Q    E  E     H        Q    E  E   
--2--------2----2--2--|--2--------2----2--2--|--0--------0----0--0--|
--3--------3----3--3--|--3--------3----3--3--|--1--------1----1--1--|
--2--------2----2--2--|--2--------2----2--2--|--0--------0----0--0--|
--0--------0----0--0--|--0--------0----0--0--|--2--------2----2--2--|
----------------------|----------------------|--3--------3----3--3--|
----------------------|----------------------|----------------------|


                         Am                                          
  H        Q    E  E     H        Q    E  E     H        Q    E  E   
--0--------0----0--0--|--0--------0----0--0--|--0--------0----0--0--|
--1--------1----1--1--|--1--------1----1--1--|--1--------1----1--1--|
--0--------0----0--0--|--2--------2----2--2--|--2--------2----2--2--|
--2--------2----2--2--|--2--------2----2--2--|--2--------2----2--2--|
--3--------3----3--3--|--0--------0----0--0--|--0--------0----0--0--|
----------------------|----------------------|----------------------|


  G                                                                    
  H        Q    E  E     H        Q    Q         Q    E  E  Q    Q     
--3--------3----3--3--|--3--------3----3----||------------------------|
--0--------0----0--0--|--0--------0----0----||------------------------|
--0--------0----0--0--|--0--------0----0----||*-----------------------|
--0--------0----0--0--|--0--------0----0----||*-------------0----2----|
--2--------2----2--2--|--2--------2----2----||--------0--2------------|
--3--------3----3--3--|--3--------3----3----||---3--------------------|


  E  Q.     E  Q.        Q    Q    Q    Q       H        E  Q.        
-----3---------3------|----------------------|--3-----------3-------||
-----3---------3------|----------------------|--3-----------3-------||
--0--0------x--0------|--0-------------------|--0--------x--0------*||
--2--2---------2------|-------2----0----0----|--0--------x--0------*||
----------------------|----------------------|--x--------x--x-------||
----------------------|-----------------3----|--3-----------3-------||


  Q    E  E  Q    Q         E  Q.     E  Q.        Q    Q    Q    Q     
-----------------------||---3--3---------3------|----------------------|
-----------------------||---3--3---------3------|----------------------|
-----------------------||*--0--0------x--0------|----------------------|
-------------0----2----||*--2--2---------2------|--2----0--------------|
-------0--2------------||-----------------------|------------2----0----|
--3--------------------||-----------------------|----------------------|


  E  Q.     E  Q.        Q    E  E  Q    Q         Q    E  E  Q    Q     
--0--0---------0------|------------------------||-----------------------|
--2--2---------2------|------------------------||-----------------------|
--2--2------x--2------|-----------------------*||-----------------------|
--2--2------x--2------|-------------0----2----*||-------------0----2----|
------------x---------|--0----0--2-------------||--0----0--2------------|
----------------------|------------------------||-----------------------|


  E  Q.     E  Q.        Q    Q    Q    Q       H        E  Q.      
-----3---------3------|----------------------|--3-----------3------|
-----3---------3------|----------------------|--3-----------3------|
--0--0------x--0------|--0-------------------|--0--------x--0------|
--2--2---------2------|-------2----0----0----|--0--------x--0------|
----------------------|----------------------|--x--------x--x------|
----------------------|-----------------3----|--3-----------3------|


  Q    E  E  Q    Q       E  Q.     E  Q.        Q    Q    Q    Q     
-----------------------|-----3---------3------|----------------------|
-----------------------|-----3---------3------|----------------------|
-----------------------|--0--0------x--0------|--0-------------------|
-------------0----2----|--2--2---------2------|-------2----0----0----|
-------0--2------------|----------------------|----------------------|
--3--------------------|----------------------|-----------------3----|


  H        E  Q.        Q    E  E  Q    Q       E  Q.     E  Q.      
--3-----------3------|-----------------------|-----3---------3------|
--3-----------3------|-----------------------|-----3---------3------|
--0--------x--0------|-----------------------|--0--0------x--0------|
--0--------x--0------|-------------0----2----|--2--2---------2------|
--x--------x--x------|-------0--2------------|----------------------|
--3-----------3------|--3--------------------|----------------------|


  Q    Q    Q    Q       E  Q.     E  Q.        Q    E  E  Q    Q     
----------------------|--0--0---------0------|-----------------------|
----------------------|--2--2---------2------|-----------------------|
----------------------|--2--2------x--2------|-----------------------|
--2----0--------------|--2--2------x--2------|-------------0----2----|
------------2----0----|------------x---------|--0----0--2------------|
----------------------|----------------------|-----------------------|


  E  Q.     E  Q.        Q    Q    Q    Q       H        E  E  Q     
-----3---------3------|----------------------|--3-----------3--3----|
-----3---------3------|----------------------|--3-----------0--0----|
--0--0------x--0------|----------------------|--0--------x--0--0----|
--2--2---------2------|--2----0--------------|--0--------x--0--0----|
----------------------|------------2----0----|--x--------x--x--2----|
----------------------|----------------------|--3-----------3--3----|


  C                                             D                    
  H        Q    E  E     H        Q    E  E     H        Q    E  E   
--0--------0----0--0--|--0--------0----0--0--|--2--------2----2--2--|
--1--------1----1--1--|--1--------1----1--1--|--3--------3----3--3--|
--0--------0----0--0--|--0--------0----0--0--|--2--------2----2--2--|
--2--------2----2--2--|--2--------2----2--2--|--0--------0----0--0--|
--3--------3----3--3--|--3--------3----3--3--|----------------------|
----------------------|----------------------|----------------------|


                         Am                                          
  H        Q    E  E     H        Q    E  E     H        Q    E  E   
--2--------2----2--2--|--0--------0----0--0--|--0--------0----0--0--|
--3--------3----3--3--|--1--------1----1--1--|--1--------1----1--1--|
--2--------2----2--2--|--2--------2----2--2--|--2--------2----2--2--|
--0--------0----0--0--|--2--------2----2--2--|--2--------2----2--2--|
----------------------|--0--------0----0--0--|--0--------0----0--0--|
----------------------|----------------------|----------------------|


  G                                             D                    
  H        Q    E  E     H        Q    E  E     H        Q    E  E   
--3--------3----3--3--|--3--------3----3--3--|--2--------2----2--2--|
--0--------0----0--0--|--0--------0----0--0--|--3--------3----3--3--|
--0--------0----0--0--|--0--------0----0--0--|--2--------2----2--2--|
--0--------0----0--0--|--0--------0----0--0--|--0--------0----0--0--|
--2--------2----2--2--|--2--------2----2--2--|----------------------|
--3--------3----3--3--|--3--------3----3--3--|----------------------|


                         C                                           
  H        Q    E  E     H        Q    E  E     H        Q    E  E   
--2--------2----2--2--|--0--------0----0--0--|--0--------0----0--0--|
--3--------3----3--3--|--1--------1----1--1--|--1--------1----1--1--|
--2--------2----2--2--|--0--------0----0--0--|--0--------0----0--0--|
--0--------0----0--0--|--2--------2----2--2--|--2--------2----2--2--|
----------------------|--3--------3----3--3--|--3--------3----3--3--|
----------------------|----------------------|----------------------|


  Am                                            G                    
  H        Q    E  E     H        Q    E  E     H        Q    E  E   
--0--------0----0--0--|--0--------0----0--0--|--3--------3----3--3--|
--1--------1----1--1--|--1--------1----1--1--|--0--------0----0--0--|
--2--------2----2--2--|--2--------2----2--2--|--0--------0----0--0--|
--2--------2----2--2--|--2--------2----2--2--|--0--------0----0--0--|
--0--------0----0--0--|--0--------0----0--0--|--2--------2----2--2--|
----------------------|----------------------|--3--------3----3--3--|


  H        Q    Q         Q    E  E  Q    Q       E  Q.     E  Q.      
--3--------3----3----||------------------------|-----3---------3------|
--0--------0----0----||------------------------|-----3---------3------|
--0--------0----0----||*-----------------------|--0--0------x--0------|
--0--------0----0----||*-------------0----2----|--2--2---------2------|
--2--------2----2----||--------0--2------------|----------------------|
--3--------3----3----||---3--------------------|----------------------|


                                                 ^                  
  Q    Q    Q    Q       H        E  Q.          W                  
----------------------|--3-----------3-------||--3----------------||
----------------------|--3-----------3-------||--3----------------||
--0-------------------|--0--------x--0------*||--0----------------||
-------2----0----0----|--0--------x--0------*||--0----------------||
----------------------|--x--------x--x-------||--x----------------||
-----------------3----|--3-----------3-------||--3----------------||


Duration Legend
---------------
W - whole
H - half
Q - quarter
E - 8th
S - 16th
T - 32nd
X - 64th
. - note dotted
|-n-|  - n-tuplets


Tablature Legend
----------------
L - tied note
x - dead note
g - grace note
(n) - ghost note
> - accentuded note
NH - natural harmonic
AH - artificial harmonic
TH - tapped harmonic
SH - semi harmonic
PH - pitch harmonic
h - hammer on
p - pull off
b - bend
br - bendRelease
pb - preBend
pbr - preBendRelease
brb - bendReleaseBend
\n/ - tremolo bar dip
\n - tremolo bar dive
-/n - tremolo bar Release up
/n\ - tremolo bar inverted dip
/n - tremolo bar return
-\n - tremolo bar Release down
S - shift slide
s - legato slide
/ -  slide into from below or out of upwards
\ -  slide into from above or out of downwards
~ - vibrato
W - wide vibrato
tr - trill
TP - tremolo picking
T - tapping
S - slap
P - pop
< - fade in
^ - brush up
v - brush down

I hope you enjoyed the Pink Floyd Wish You Were Here Guitar Tab , let me know in comments below if you have any wishes of other tabs you want me to post.

Download Guitar Pro Tab

Download PDF Tab

Crazy train Guitar Tabs – Black Sabbath

 

CRAZY TRAIN GUITAR TABS!!

|-------------------------------------|
|-------------------------------------|
|-------------------------------------|
|-------------------------------------|
|-------0-0-------------5-5-----------|
|-2-2--------0-0--2-2--------0-0--2-2-|

|-----------------------------------------------------------|
|-----------------------------------------------------------|
|-----------------------------------------------------------|
|-----------------------------------------------------------|
|-----4---5---4---2-0---0-2-0---------4---5---4---2-0---0-2-|
|-2-2---2---2---2-----4-------4-0-2-2---2---2---2-----4-----|

|----------------------------------------------------------|
|----------------------------------------------------------|
|----------------------------------------------------------|
|----------------------------------------------------------|
|-0---------4---5---4---2-0---0-2-0---------4---5---4------|
|---4-0-2-2---2---2---2-----4-------4-0-2-2---2---2---2----|

|--2-------0-------|
|--3-------0-------|
|--2-------1-------|
|--0-------2-------|
|----------2-------|
|----------0-------|

|---2----------2----------2----------2-------------------2-|
|---2----------5----------3----------2-------------------2-|
|---2----------2----------2----------2-------------------2-|
|---2----------2----------2----------2-------------------2-|
|----------------------------------------------------------|
|----------------------------------------------------------|

|---------2----------2----------2--------------------------|
|---------5----------3----------2--------------------------|
|---------2----------2----------2-----h4p2p0---------------|
|---------2----------2----------2-----------h4p2p0---------|
|-------------------------------------------------h4p2p0---|
|----------------------------------------------------------|

|---2----------2----------2----------2-----------|
|---2----------5----------3----------2-----------|
|---2----------2----------2----------2-----------|
|---2----------2----------2----------2-----------|
|------------------------------------------------|
|------------------------------------------------|
   x4


|-------------------2-----------------------------2--------|
|-------------------3-----------------------------3--------|
|-------------------2------6^---------------------2--------|
|-4------4----------0--0-4-----4------4-----------0--------|
|-4------4---------------------4------4--------------5-5-4-|
|-2------2---------------------2------2--------------------|

|----2-2--2---2---0-----0--0-0---0---------------------------|
|----2-2--2---2---0-----0--0-0---0--\2-3p2-------------------|
|----2-2--2---2---1-----1--1-1---1----------4p2-5p2--4p2-3p2-|
|----2-2--2---2---2-----2--2-2---2---------------------------|
|-2---------------2-----1--1-1---1---------------------------|
|------------------------------------------------------------|


|------------------------------------|
|------------------------------------|
|------------------------------------|
|-4p2-3p2-4p3p2p0--------------------|
|-----------------4p0-3p0-4p3p2p0----|
|---------------------------------2--|

|----2-2--2---2---0-----0--0-0---0---------------------------|
|----2-2--2---2---0-----0--0-0---0---------------------------|
|----2-2--2---2---1-----1--1-1---1---------------------------|
|----2-2--2---2---2-----2--2-2---2---------------------------|
|-2---------------2-----1--1-1---1--------------0------------|
|------------------------------------2-0-2--2h4----4-2-0-2-4-|


|-----------2---2---0---0--|
|-----------3---3---0---0--|
|-----------2---2---1---1--|
|-----------0---0---2---2--|
|-------------------2---2--|
|-2-0-2-2h4----------------|


|----2-2--2---2---0-----0--0-0---0-|
|----2-2--2---2---0-----0--0-0---0-|
|----2-2--2---2---1-----1--1-1---1-|
|----2-2--2---2---2-----2--2-2---2-|
|-2---------------2-----1--1-1---1-|
|----------------------------------|

 

A video from the good old Black Sabbath days, not the best quality, but it’s great to see these old videos

 
Tags: crazy train tabs guitar, crazy train tabs ozzy osbourne

 

Pink Floyd Echoes Guitar Tabs For Beginners

Pink Floyd – Echoes – Guitar Tabs

Intro :
--12(14)--12(14)---------------------|
------------------12(14)--12-12(14)--|
-------------------------------------|
-------------------------------------|
-------------------------------------|
-------------------------------------|

--12(14)--12-9-12(14)--12----------------------------------|
--------------------------12-12(14)--12--------------------|
----------------------------------------11(13)11p9-11(13)--|
-----------------------------------------------------------|
-----------------------------------------------------------|
-----------------------------------------------------------|

-------------------------------------------------------------------------|
-------------------------------------------------------------------------|
--11(13)11p9-------------------------9-9h11-11(13)p9-11-11(13)p9-11(13)--|
-------------11-9---------------9-11-------------------------------------|
------------------11-12------12------------------------------------------|
-------------------------------------------------------------------------|

---------------12(14)--11(13)-11(13)11------------------------|
----9-12(14)---------------------------(14)13-----------------|
--9------------------------------------------13---------------|
-----------------------------------------------13\11-10---11--|
--------------------------------------------------------11----|
--------------------------------------------------------------|

--------------------------------------------------|
--------------------------------------------------|
--------11(13)-11-9-11-11(13)~~---11-9\8----------|
--11-------------------------------------11-9-11--|
--------------------------------------------------|
--------------------------------------------------|

--------------9------------------------------------|
----------------9-12-12(14)-----10p9---------------|
-----9-11(13)-----------------------11-9-11/13\11--|
--11-----------------------------------------------|
---------------------------------------------------|
---------------------------------------------------|

----------------------------------------------------------|
---------------------------------12-12(14)---9-12-12(14)--|
--11(13)-9-11-11(13)-9----11(13)-----------9--------------|
-----------------------11---------------------------------|
----------------------------------------------------------|
----------------------------------------------------------|

--12(14)--11(13)-11(13)11-------------------------|
---------------------------(14)13-----------------|
---------------------------------13---------------|
-----------------------------------13\11-10---11--|
--------------------------------------------11----|
--------------------------------------------------|

C#m
Overhead the albatross
B
Hangs motionless upon the air
F#m
and deep beneath the rolling waves
G#
In labyrinth's of coral caves
C#m
The echo of a distant time
B
Comes willowing across the sand
F#m
And everything is green and
G#
Submarine.

C#
And no one showed us to the land
G#
And no one knows the where or whys
F#m
But something stirs and something tries
G#                               A
And starts to climb towards the light

Coda A
2 Times

-----------------------------------------------4-4-4--4--4--|
-----------------------------------------------5-5-5--5--5--|
-----------------------------------------------6-6-6--6--6--|
-----------------------1-2-1-2-4-6-4-6-7-6-----6-6-6--6--6--|
-4-3-2-1-0---0-2-4-2-4---------------------4---4-4-4--4--4--|
-----------4------------------------------------------------|

On third time                                           (con't)
----------------------------------------------0--------0----|
------------------------------------------------0--------0--|
------------------------------------------------------------|
-----------------------1-2-1-2-1-----------2--------2-------|
-4-3-2-1-0---0-2-4-2-4-----------4-3-2-0--------------------|
-----------4-----------------------------0--------0---------|
(continue here)
-----0-------0----|
---0---0---1---1--|
------------------|
------------------|
-2-------3--------|
------------------|

Repeat all above for next verse
After second verse and guitar chorus go right into solo

Solo

------------------------------------------------|
------------------------------------------------|
------------------------------------------------|
------------------------------------------------|
--4---4\2-------------2-4-3~--3 / 4-3-3-4-6-7~--|
----------4---2--4-5----------------------------|

----------------------------------------------------|
----------------------------------------------------|
---------9~-11-11(12)11(13)/ 19(21)--9~-------------|
--9~-11~--------------------------------11~-9~------|
-----------------------------------------------11~--|
----------------------------------------------------|

------9-11(13)-(13)11-11~--|
--/9~----------------------|
---------------------------|
---------------------------|
---------------------------|
---------------------------|

-------------------------------------------------|
-9----9-9h10p9----9-10-12-12(14)12-12(16)12-9~---|
---11----------11--------------------------------|
-------------------------------------------------|
-------------------------------------------------|
-------------------------------------------------|

---------------------------12-------|
--------9---------------12(14)(14)--|
------9---11(12)11(13)--------------|
--/11-------------------------------|
------------------------------------|
------------------------------------|

--12-12(14)12-12-12-11----------------------------------|
-----------------------12-12(14)12-12(14)(16)12-12(14)--|
--------------------------------------------------------|
--------------------------------------------------------|
--------------------------------------------------------|
--------------------------------------------------------|

--12p11----9-11-12-12/16-16-16-16/19-19-19-19/21-21-21-21-21(23)--|
--------12--------------------------------------------------------|
------------------------------------------------------------------|
------------------------------------------------------------------|
------------------------------------------------------------------|
------------------------------------------------------------------|

--21--21-21-18-17~--17\16--------16-17-17p16------------------|
--------------------------17~~~~-------------17~~~~16~~~~17~--|
-----------------------------16~----------------16~~~~/17~~~--|
--------------------------------------------------------------|
--------------------------------------------------------------|
--------------------------------------------------------------|

----x-4-4----------------------------|
----x-5-5--------------2-2-----------|
----x-6-6--------------2-2-----------|
----x-6-6--------------2-2-----------|
--4-x-4-4--4-3-2-1-0**-0-0-0-1-2-3---|
-------------------------------------|

On fourth time (Coda B)
------0-------0-------0-------0----|
--------0-------0---0---0---1---1--|
-----------------------------------|
----2-------2----------------------|
------------------2-------3--------|
--0-------0------------------------|

Now the 'jam' part
Rythym                            etc...
----------4-4-x-x---------4-4-x-x--|
--4-4-x-x-5-5-x-x-4-4-x-x-5-5-x-x--|
--4-4-x-x-6-6-x-x-4-4-x-x-6-6-x-x--|
--4-4-x-x-6-6-x-x-4-4-x-x-6-6-x-x--|
--2-2-x-x-4-4-x-x-2-2-x-x-4-4-x-x--|
-----------------------------------|

Lead Number 1
-----------------------------------------|
--12(13)12--12--12-12-11-----------------|
--12(13)12---------------11------x-9--6--|
--12(13)12------------------11---x-9--6--|
-----------------------------------------|
-----------------------------------------|

Lead Number 2
----------------------------------------------------------------------------|
--12(13)12-12(13)12-12/17-17-17-17-16-----16h17p16-16-16-16-14--------------|
--12(13)12-12(13)12------------------16-----------------------14----x-9--6--|
--12(13)12-12(13)12--------------------16-----------------------14--x-9--6--|
----------------------------------------------------------------------------|
----------------------------------------------------------------------------|

Lead Number 3
-----16--------16-----18--------18--------16---------16-16--/9~~--|
--/17--17--------17/19--19--------19-19\17--17-------17-17--/9~~--|
---------16****-----------18****--------------16****-16-16--/9~~--|
------------------------------------------------------------/9~~--|
------------------------------------------------------------------|
------------------------------------------------------------------|

| /  slide up
| \  slide down
| h  hammer-on
| p  pull-off
| ~  vibrato
| +  harmonic
| x  Mute note
=============================================================================

Videos with Pink Floyd Echoes

The Solo, sounds great:

 

From 2:35 to the end:


 

An acoustic cover of Echoes
 

Hope you liked the guitar tabs for Pink Floyd Echoes.

Hey There Delilah Guitar Tabs

Hey There Delilah Guitar Tabs For Beginners

[ad#guitarsitetop]

Plain White T's - Hey There Delilah

Intro D F#m D F#m
e-------------------------------------------------------------------|
B---3---3---3---3---2---2---2---2---3---3---3---3---2---2---2---2---|
G---2---2---2---2---2---2---2---2---2---2---2---2---2---2---2---2---|
D-0---0---0---0---4---4---4---4---0---0---0---0---4---4---4---4-----|
A-------------------------------------------------------------------|
E-------------------------------------------------------------------|


Verse 1:
D F#m D F#m
e-------------------------------------------------------------------|
B---3---3---3---3---2---2---2---2---3---3---3---3---2---2---2-------|
G---2---2---2---2---2---2---2---2---2---2---2---2---2---2---2-------|
D-0---0---0---0---4---4---4---4---0---0---0---0---4---4---4---4-----|
A-------------------------------------------------------------------|
E-------------------------------------------------------------------|

Bm G A Bm A
e-------------------------------------------------------------------|
B---3---3---3-------3---3---2---2---3---3---3---3---2---2---5---5---|
G---4---4---4-------4---4---2---2---4---4---4---4---2---2---2---2---|
D-------------------------------------------------------------------|
A-2---2---2---0-----------0---0---2---2---2---2---0---0---0---0-----|
E-----------------3---3---------------------------------------------|

D F#m D F#m
e-------------------------------------------------------------------|
B---3---3---3---3---2---2---2---2---3---3---3---3---2---2---2-------|
G---2---2---2---2---2---2---2---2---2---2---2---2---2---2---2-------|
D-0---0---0---0---4---4---4---4---0---0---0---0---4---4---4---4-----|
A-------------------------------------------------------------------|
E-------------------------------------------------------------------|

Bm G A Bm A
e-------------------------------------------------------------------|
B---3---3---3-------3---3---2---2---3---3---3---3---2---2---5---5---|
G---4---4---4-------4---4---2---2---4---4---4---4---2---2---2---2---|
D-------------------------------------------------------------------|
A-2---2---2---0-----------0---0---2---2---2---2---0---0---0---0-----|
E-----------------3---3---------------------------------------------|


Chorus
D Bm D Bm
e-------------------------------------------------------------------|
B---3---3---3-------3---3---3---3---3---3---3--------3---3---3---3--|
G---2---2---2-------4---4---4---4---2---2---2--------4---4---4---4--|
D-0---0---0-----------------------0---0---0-------------------------|
A-------------0---2---2---2---4----------------0---2---2---2---4----|
E-------------------------------------------------------------------|

D Bm D Bm
e-------------------------------------------------------------------|
B---3---3---3-------3---3---3---3---3---3---3--------3---3---3---3--|
G---2---2---2-------4---4---4---4---2---2---2--------4---4---4---4--|
D-0---0---0-----------------------0---0---0-------------------------|
A-------------0---2---2---2---4----------------0---2---2---2---4----|
E-------------------------------------------------------------------|


Interlude
D D/A
e-----------------------|
B---3---3---3---3-------|
G---2---2---2---2-------|
D-0---0---0-------------|
A-------------0---------|
E-----------------------|


Verse 2:
D F#m D F#m
e-------------------------------------------------------------------|
B---3---3---3---3---2---2---2---2---3---3---3---3---2---2---2-------|
G---2---2---2---2---2---2---2---2---2---2---2---2---2---2---2-------|
D-0---0---0---0---4---4---4---4---0---0---0---0---4---4---4---4-----|
A-------------------------------------------------------------------|
E-------------------------------------------------------------------|

Bm G A Bm A
e-------------------------------------------------------------------|
B---3---3---3-------3---3---2---2---3---3---3---3---2---2---5---5---|
G---4---4---4-------4---4---2---2---4---4---4---4---2---2---2---2---|
D-------------------------------------------------------------------|
A-2---2---2---0-----------0---0---2---2---2---2---0---0---0---0-----|
E-----------------3---3---------------------------------------------|

D F#m D F#m
e-------------------------------------------------------------------|
B---3---3---3---3---2---2---2---2---3---3---3---3---2---2---2-------|
G---2---2---2---2---2---2---2---2---2---2---2---2---2---2---2-------|
D-0---0---0---0---4---4---4---4---0---0---0---0---4---4---4---4-----|
A-------------------------------------------------------------------|
E-------------------------------------------------------------------|

Bm G A Bm A
e-------------------------------------------------------------------|
B---3---3---3-------3---3---2---2---3---3---3---3---2---2---5---5---|
G---4---4---4-------4---4---2---2---4---4---4---4---2---2---2---2---|
D-------------------------------------------------------------------|
A-2---2---2---0-----------0---0---2---2---2---2---0---0---0---0-----|
E-----------------3---3---------------------------------------------|


Chorus
D Bm D Bm
e-------------------------------------------------------------------|
B---3---3---3-------3---3---3---3---3---3---3--------3---3---3---3--|
G---2---2---2-------4---4---4---4---2---2---2--------4---4---4---4--|
D-0---0---0-----------------------0---0---0-------------------------|
A-------------0---2---2---2---4----------------0---2---2---2---4----|
E-------------------------------------------------------------------|

D Bm D Bm
e-------------------------------------------------------------------|
B---3---3---3-------3---3---3---3---3---3---3--------3---3---3------|
G---2---2---2-------4---4---4---4---2---2---2--------4---4---4------|
D-0---0---0-----------------------0---0---0-------------------------|
A-------------0---2---2---2---4----------------0---2---2---2---0----|
E-------------------------------------------------------------------|


Bridge
G A D Bm
e-------------------------------------------------------------------|
B---3---3---3---3---2---2---2---2---3---3---3-------3---3---3-------|
G---4---4---4---4---2---2---2---2---2---2---2-------4---4---4-------|
D---------------------------------0---0---0-------------------------|
A-----------------0---0---0---0---------------0---2---2---2---0-----|
E-3---3---3---3-----------------------------------------------------|

G A D Bm
e-------------------------------------------------------------------|
B---3---3---3---3---2---2---2---2---3---3---3-------3---3---3-------|
G---4---4---4---4---2---2---2---2---2---2---2-------4---4---4-------|
D---------------------------------0---0---0-------------------------|
A-----------------0---0---0---0---------------4---2---2---2---0-----|
E-3---3---3---3-----------------------------------------------------|

G A Bm
e-------------------------------------------------------------------|
B---3---3---3---3---2---2---2-------3---3---3---3---3---3---3---3---|
G---4---4---4---4---2---2---2-------4---4---4---4---4---4---4---4---|
D-------------------------------------------------------------------|
A-----------------0---0---0---0---2---2---2---2---2---2---2---2-----|
E-3---3---3---3-----------------------------------------------------|

A
e-----------------------------------|
B---2---2---2---2---5---5---5---5---|
G---2---2---2---2---2---2---2---2---|
D-----------------------------------|
A-0---0---0---0---0---0---0---0-----|
E-----------------------------------|


Verse 3:
D F#m D F#m
e-------------------------------------------------------------------|
B---3---3---3---3---2---2---2---2---3---3---3---3---2---2-----------|
G---2---2---2---2---2---2---2---2---2---2---2---2---2---2-----------|
D-0---0---0---0---4---4---4---4---0---0---0---0---4---4---4---------|
A-------------------------------------------------------------------|
E-------------------------------------------------------------------|

Bm G A Bm G A
e-------------------------------------------------------------------|
B---3---3---3-------3---3---2---2---3---3---3-------3---3---2---2---|
G---4---4---4-------4---4---2---2---4---4---4-------4---4---2---2---|
D-------------------------------------------------------------------|
A-2---2---2---0-----------0---0---2---2---2---0-----------0---0-----|
E-----------------3---3---------------------------3---3-------------|

Bm G A Bm A
e-------------------------------------------------------------------|
B---3---3---3-------3---3---2---2---3---3---3---3---2---2---2---2---|
G---4---4---4-------4---4---2---2---4---4---4---4---2---2---2---2---|
D-------------------------------------------------------------------|
A-2---2---2---0-----------0---0---2---2---2---2---0---0---0---0-----|
E-----------------3---3---------------------------------------------|

A (cont.)
e-------------------|
B---5---5---5---5---|
G---2---2---2---2---|
D-------------------|
A-0---0---0---0-----|
E-------------------|

Chorus
D Bm D Bm
e-------------------------------------------------------------------|
B---3---3---3-------3---3---3---3---3---3---3-------3---3---3---3---|
G---2---2---2-------4---4---4---4---2---2---2-------4---4---4---4---|
D-0---0---0-----------------------0---0---0-------------------------|
A-------------0---2---2---2---4---------------0---2---2---2---4-----|
E-------------------------------------------------------------------|

D Bm D Bm
e-------------------------------------------------------------------|
B---3---3---3-------3---3---3---3---3---3---3-------3---3---3---3---|
G---2---2---2-------4---4---4---4---2---2---2-------4---4---4---4---|
D-0---0---0-----------------------0---0---0-------------------------|
A-------------0---2---2---2---4---------------0---2---2---2---4-----|
E-------------------------------------------------------------------|

D Bm D Bm
e-------------------------------------------------------------------|
B---3---3---3-------3---3---3---3---3---3---3-------3---3---3---3---|
G---2---2---2-------4---4---4---4---2---2---2-------4---4---4---4---|
D-0---0---0-----------------------0---0---0-------------------------|
A-------------0---2---2---2---4---------------0---2---2---2---4-----|
E-------------------------------------------------------------------|

D Bm D Bm
e-------------------------------------------------------------------|
B---3---3---3-------3---3---3---3---3---3---3-------3---3---3---3---|
G---2---2---2-------4---4---4---4---2---2---2-------4---4---4---4---|
D-0---0---0-----------------------0---0---0-------------------------|
A-------------0---2---2---2---4---------------0---2---2---2---4-----|
E-------------------------------------------------------------------|

Ending
D strum
e-----------------2---|
B---3---3---3---3-3---|
G---2---2---2---2-2---|
D-0---0---0-------0---|
A-------------0-------|
E---------------------|

These Hey There Delilah guitar tabs can be played without playing the high E string, it’s only played in the last D strum. I hope you enjoy these guitar tabs for beginners, see you next time.

Here is the lyrics for Hey There Delilah – Plain White

Hey There Delilah lyrics

Hey there Delilah what’s it like in New York City
I’m a thousand miles away
But girl tonight you look so pretty, yes you do
Times Square can’t shine as bright as you, I swear it’s true

Hey there Delilah don’t you worry about the distance
I’m right there if you get lonely give this song another listen
Close your eyes, listen to my voice it’s my disguise
I’m by your side

Oh it’s what you do to me
Oh it’s what you do to me
Oh it’s what you do to me
Oh it’s what you do to me
What you do to me

Hey there Delilah, I know times are getting hard
But just believe me girl, someday I’ll pay the bills with this guitar
We’ll have it good, we’ll have the life we knew we would
My word is good

Hey there Delilah, I’ve got so much left to say
If every simple song I wrote to you
Would take your breath away, I’d write it all
Even more in love with me you’d fall, we’d have it all

Oh it’s what you do to me
Oh it’s what you do to me
Oh it’s what you do to me
Oh it’s what you do to me

A thousand miles seems pretty far
But they’ve got planes and trains and cars
I’d walk to you if I had no other way
Our friends would all make fun of us
And we’ll just laugh along because we know
That none of them have felt this way

Delilah I can promise you
That by the time that we get through
The world will never ever be the same
And you’re to blame

Hey there Delilah
You be good and don’t you miss me
Two more years and you’ll be done with school
And I’ll be making history like I do

You’ll know it’s all because of you
We can do whatever we want to
Hey there Delilah here’s to you
This one’s for you

Oh it’s what you do to me
Oh it’s what you do to me
Oh it’s what you do to me
Oh it’s what you do to me
What you do to me

[ad#guitarsitemiddle]