Pink Floyd – Wish You Were Here Tab

Here are the guitar tabs for Wish You Were Here with Pink Floyd

You can find a guitar pro tab and pdf tab download at the bottom.

 

       Q    E  E  Q    Q       E  Q.     E  Q.        Q    Q    Q    Q     
E||------------------------|-----3---------3------|----------------------|
B||------------------------|-----3---------3------|----------------------|
G||*-----------------------|--0--0------x--0------|--0-------------------|
D||*-------------0----2----|--2--2---------2------|-------2----0----0----|
A||--------0--2------------|----------------------|----------------------|
E||---3--------------------|----------------------|-----------------3----|


  H        E  Q.          Q    E  E  Q    Q         E  Q.     E  Q.      
--3-----------3-------||-----------------------||---3--3---------3------|
--3-----------3-------||-----------------------||---3--3---------3------|
--0--------x--0------*||-----------------------||*--0--0------x--0------|
--0--------x--0------*||-------------0----2----||*--2--2---------2------|
--x--------x--x-------||-------0--2------------||-----------------------|
--3-----------3-------||--3--------------------||-----------------------|


  Q    Q    Q    Q       E  Q.     E  Q.        Q    E  E  Q    Q       
----------------------|--0--0---------0------|------------------------||
----------------------|--2--2---------2------|------------------------||
----------------------|--2--2------x--2------|-----------------------*||
--2----0--------------|--2--2------x--2------|-------------0----2----*||
------------2----0----|------------x---------|--0----0--2-------------||
----------------------|----------------------|------------------------||


  Q    E  E  Q    Q       E  Q.     E  Q.        Q    Q    Q    Q     
-----------------------|-----3---------3------|----------------------|
-----------------------|-----3---------3------|----------------------|
-----------------------|--0--0------x--0------|--0-------------------|
-------------0----2----|--2--2---------2------|-------2----0----0----|
--0----0--2------------|----------------------|----------------------|
-----------------------|----------------------|-----------------3----|


  H        E  Q.        Q    E  E  Q    Q       E  Q.     E  Q.      
--3-----------3------|-----------------------|-----3---------3------|
--3-----------3------|-----------------------|-----3---------3------|
--0--------x--0------|-----------------------|--0--0------x--0------|
--0--------x--0------|-------------0----2----|--2--2---------2------|
--x--------x--x------|-------0--2------------|----------------------|
--3-----------3------|--3--------------------|----------------------|


  Q    Q    Q    Q       H        E  Q.        Q    E  E  Q    Q     
----------------------|--3-----------3------|-----------------------|
----------------------|--3-----------3------|-----------------------|
--0-------------------|--0--------x--0------|-----------------------|
-------2----0----0----|--0--------x--0------|-------------0----2----|
----------------------|--x--------x--x------|-------0--2------------|
-----------------3----|--3-----------3------|--3--------------------|


  E  Q.     E  Q.        Q    Q    Q    Q       E  Q.     E  Q.      
-----3---------3------|----------------------|--0--0---------0------|
-----3---------3------|----------------------|--2--2---------2------|
--0--0------x--0------|----------------------|--2--2------x--2------|
--2--2---------2------|--2----0--------------|--2--2------x--2------|
----------------------|------------2----0----|------------x---------|
----------------------|----------------------|----------------------|


  Q    E  E  Q    Q       E  Q.     E  Q.        Q    Q    Q    Q     
-----------------------|-----3---------3------|----------------------|
-----------------------|-----3---------3------|----------------------|
-----------------------|--0--0------x--0------|----------------------|
-------------0----2----|--2--2---------2------|--2----0--------------|
--0----0--2------------|----------------------|------------2----0----|
-----------------------|----------------------|----------------------|


                         C                                           
  H        E  E  Q       H        Q    E  E     H        Q    E  E   
--3-----------3--3----|--0--------0----0--0--|--0--------0----0--0--|
--3-----------0--0----|--1--------1----1--1--|--1--------1----1--1--|
--0--------x--0--0----|--0--------0----0--0--|--0--------0----0--0--|
--0--------x--0--0----|--2--------2----2--2--|--2--------2----2--2--|
--x--------x--x--2----|--3--------3----3--3--|--3--------3----3--3--|
--3-----------3--3----|----------------------|----------------------|


  D                                             Am                   
  H        Q    E  E     H        Q    E  E     H        Q    E  E   
--2--------2----2--2--|--2--------2----2--2--|--0--------0----0--0--|
--3--------3----3--3--|--3--------3----3--3--|--1--------1----1--1--|
--2--------2----2--2--|--2--------2----2--2--|--2--------2----2--2--|
--0--------0----0--0--|--0--------0----0--0--|--2--------2----2--2--|
----------------------|----------------------|--0--------0----0--0--|
----------------------|----------------------|----------------------|


                         G                                           
  H        Q    E  E     H        Q    E  E     H        Q    E  E   
--0--------0----0--0--|--3--------3----3--3--|--3--------3----3--3--|
--1--------1----1--1--|--0--------0----0--0--|--0--------0----0--0--|
--2--------2----2--2--|--0--------0----0--0--|--0--------0----0--0--|
--2--------2----2--2--|--0--------0----0--0--|--0--------0----0--0--|
--0--------0----0--0--|--2--------2----2--2--|--2--------2----2--2--|
----------------------|--3--------3----3--3--|--3--------3----3--3--|


  D                                             C                    
  H        Q    E  E     H        Q    E  E     H        Q    E  E   
--2--------2----2--2--|--2--------2----2--2--|--0--------0----0--0--|
--3--------3----3--3--|--3--------3----3--3--|--1--------1----1--1--|
--2--------2----2--2--|--2--------2----2--2--|--0--------0----0--0--|
--0--------0----0--0--|--0--------0----0--0--|--2--------2----2--2--|
----------------------|----------------------|--3--------3----3--3--|
----------------------|----------------------|----------------------|


                         Am                                          
  H        Q    E  E     H        Q    E  E     H        Q    E  E   
--0--------0----0--0--|--0--------0----0--0--|--0--------0----0--0--|
--1--------1----1--1--|--1--------1----1--1--|--1--------1----1--1--|
--0--------0----0--0--|--2--------2----2--2--|--2--------2----2--2--|
--2--------2----2--2--|--2--------2----2--2--|--2--------2----2--2--|
--3--------3----3--3--|--0--------0----0--0--|--0--------0----0--0--|
----------------------|----------------------|----------------------|


  G                                                                    
  H        Q    E  E     H        Q    Q         Q    E  E  Q    Q     
--3--------3----3--3--|--3--------3----3----||------------------------|
--0--------0----0--0--|--0--------0----0----||------------------------|
--0--------0----0--0--|--0--------0----0----||*-----------------------|
--0--------0----0--0--|--0--------0----0----||*-------------0----2----|
--2--------2----2--2--|--2--------2----2----||--------0--2------------|
--3--------3----3--3--|--3--------3----3----||---3--------------------|


  E  Q.     E  Q.        Q    Q    Q    Q       H        E  Q.        
-----3---------3------|----------------------|--3-----------3-------||
-----3---------3------|----------------------|--3-----------3-------||
--0--0------x--0------|--0-------------------|--0--------x--0------*||
--2--2---------2------|-------2----0----0----|--0--------x--0------*||
----------------------|----------------------|--x--------x--x-------||
----------------------|-----------------3----|--3-----------3-------||


  Q    E  E  Q    Q         E  Q.     E  Q.        Q    Q    Q    Q     
-----------------------||---3--3---------3------|----------------------|
-----------------------||---3--3---------3------|----------------------|
-----------------------||*--0--0------x--0------|----------------------|
-------------0----2----||*--2--2---------2------|--2----0--------------|
-------0--2------------||-----------------------|------------2----0----|
--3--------------------||-----------------------|----------------------|


  E  Q.     E  Q.        Q    E  E  Q    Q         Q    E  E  Q    Q     
--0--0---------0------|------------------------||-----------------------|
--2--2---------2------|------------------------||-----------------------|
--2--2------x--2------|-----------------------*||-----------------------|
--2--2------x--2------|-------------0----2----*||-------------0----2----|
------------x---------|--0----0--2-------------||--0----0--2------------|
----------------------|------------------------||-----------------------|


  E  Q.     E  Q.        Q    Q    Q    Q       H        E  Q.      
-----3---------3------|----------------------|--3-----------3------|
-----3---------3------|----------------------|--3-----------3------|
--0--0------x--0------|--0-------------------|--0--------x--0------|
--2--2---------2------|-------2----0----0----|--0--------x--0------|
----------------------|----------------------|--x--------x--x------|
----------------------|-----------------3----|--3-----------3------|


  Q    E  E  Q    Q       E  Q.     E  Q.        Q    Q    Q    Q     
-----------------------|-----3---------3------|----------------------|
-----------------------|-----3---------3------|----------------------|
-----------------------|--0--0------x--0------|--0-------------------|
-------------0----2----|--2--2---------2------|-------2----0----0----|
-------0--2------------|----------------------|----------------------|
--3--------------------|----------------------|-----------------3----|


  H        E  Q.        Q    E  E  Q    Q       E  Q.     E  Q.      
--3-----------3------|-----------------------|-----3---------3------|
--3-----------3------|-----------------------|-----3---------3------|
--0--------x--0------|-----------------------|--0--0------x--0------|
--0--------x--0------|-------------0----2----|--2--2---------2------|
--x--------x--x------|-------0--2------------|----------------------|
--3-----------3------|--3--------------------|----------------------|


  Q    Q    Q    Q       E  Q.     E  Q.        Q    E  E  Q    Q     
----------------------|--0--0---------0------|-----------------------|
----------------------|--2--2---------2------|-----------------------|
----------------------|--2--2------x--2------|-----------------------|
--2----0--------------|--2--2------x--2------|-------------0----2----|
------------2----0----|------------x---------|--0----0--2------------|
----------------------|----------------------|-----------------------|


  E  Q.     E  Q.        Q    Q    Q    Q       H        E  E  Q     
-----3---------3------|----------------------|--3-----------3--3----|
-----3---------3------|----------------------|--3-----------0--0----|
--0--0------x--0------|----------------------|--0--------x--0--0----|
--2--2---------2------|--2----0--------------|--0--------x--0--0----|
----------------------|------------2----0----|--x--------x--x--2----|
----------------------|----------------------|--3-----------3--3----|


  C                                             D                    
  H        Q    E  E     H        Q    E  E     H        Q    E  E   
--0--------0----0--0--|--0--------0----0--0--|--2--------2----2--2--|
--1--------1----1--1--|--1--------1----1--1--|--3--------3----3--3--|
--0--------0----0--0--|--0--------0----0--0--|--2--------2----2--2--|
--2--------2----2--2--|--2--------2----2--2--|--0--------0----0--0--|
--3--------3----3--3--|--3--------3----3--3--|----------------------|
----------------------|----------------------|----------------------|


                         Am                                          
  H        Q    E  E     H        Q    E  E     H        Q    E  E   
--2--------2----2--2--|--0--------0----0--0--|--0--------0----0--0--|
--3--------3----3--3--|--1--------1----1--1--|--1--------1----1--1--|
--2--------2----2--2--|--2--------2----2--2--|--2--------2----2--2--|
--0--------0----0--0--|--2--------2----2--2--|--2--------2----2--2--|
----------------------|--0--------0----0--0--|--0--------0----0--0--|
----------------------|----------------------|----------------------|


  G                                             D                    
  H        Q    E  E     H        Q    E  E     H        Q    E  E   
--3--------3----3--3--|--3--------3----3--3--|--2--------2----2--2--|
--0--------0----0--0--|--0--------0----0--0--|--3--------3----3--3--|
--0--------0----0--0--|--0--------0----0--0--|--2--------2----2--2--|
--0--------0----0--0--|--0--------0----0--0--|--0--------0----0--0--|
--2--------2----2--2--|--2--------2----2--2--|----------------------|
--3--------3----3--3--|--3--------3----3--3--|----------------------|


                         C                                           
  H        Q    E  E     H        Q    E  E     H        Q    E  E   
--2--------2----2--2--|--0--------0----0--0--|--0--------0----0--0--|
--3--------3----3--3--|--1--------1----1--1--|--1--------1----1--1--|
--2--------2----2--2--|--0--------0----0--0--|--0--------0----0--0--|
--0--------0----0--0--|--2--------2----2--2--|--2--------2----2--2--|
----------------------|--3--------3----3--3--|--3--------3----3--3--|
----------------------|----------------------|----------------------|


  Am                                            G                    
  H        Q    E  E     H        Q    E  E     H        Q    E  E   
--0--------0----0--0--|--0--------0----0--0--|--3--------3----3--3--|
--1--------1----1--1--|--1--------1----1--1--|--0--------0----0--0--|
--2--------2----2--2--|--2--------2----2--2--|--0--------0----0--0--|
--2--------2----2--2--|--2--------2----2--2--|--0--------0----0--0--|
--0--------0----0--0--|--0--------0----0--0--|--2--------2----2--2--|
----------------------|----------------------|--3--------3----3--3--|


  H        Q    Q         Q    E  E  Q    Q       E  Q.     E  Q.      
--3--------3----3----||------------------------|-----3---------3------|
--0--------0----0----||------------------------|-----3---------3------|
--0--------0----0----||*-----------------------|--0--0------x--0------|
--0--------0----0----||*-------------0----2----|--2--2---------2------|
--2--------2----2----||--------0--2------------|----------------------|
--3--------3----3----||---3--------------------|----------------------|


                                                 ^                  
  Q    Q    Q    Q       H        E  Q.          W                  
----------------------|--3-----------3-------||--3----------------||
----------------------|--3-----------3-------||--3----------------||
--0-------------------|--0--------x--0------*||--0----------------||
-------2----0----0----|--0--------x--0------*||--0----------------||
----------------------|--x--------x--x-------||--x----------------||
-----------------3----|--3-----------3-------||--3----------------||


Duration Legend
---------------
W - whole
H - half
Q - quarter
E - 8th
S - 16th
T - 32nd
X - 64th
. - note dotted
|-n-|  - n-tuplets


Tablature Legend
----------------
L - tied note
x - dead note
g - grace note
(n) - ghost note
> - accentuded note
NH - natural harmonic
AH - artificial harmonic
TH - tapped harmonic
SH - semi harmonic
PH - pitch harmonic
h - hammer on
p - pull off
b - bend
br - bendRelease
pb - preBend
pbr - preBendRelease
brb - bendReleaseBend
\n/ - tremolo bar dip
\n - tremolo bar dive
-/n - tremolo bar Release up
/n\ - tremolo bar inverted dip
/n - tremolo bar return
-\n - tremolo bar Release down
S - shift slide
s - legato slide
/ -  slide into from below or out of upwards
\ -  slide into from above or out of downwards
~ - vibrato
W - wide vibrato
tr - trill
TP - tremolo picking
T - tapping
S - slap
P - pop
< - fade in
^ - brush up
v - brush down

I hope you enjoyed the Pink Floyd Wish You Were Here Guitar Tab , let me know in comments below if you have any wishes of other tabs you want me to post.

Download Guitar Pro Tab

Download PDF Tab

Click Here to Leave a Comment Below 0 comments